ISO-10303-21;
HEADER;
FILE_DESCRIPTION (( 'STEP AP203' ),
    '1' );
FILE_NAME ('0520120000.STEP',
    '2024-07-01T13:14:58',
    ( '' ),
    ( '' ),
    'SwSTEP 2.0',
    'SolidWorks 2022',
    '' );
FILE_SCHEMA (( 'CONFIG_CONTROL_DESIGN' ));
ENDSEC;

DATA;
#1 = CC_DESIGN_APPROVAL ( #20, ( #158 ) ) ;
#2 = ORIENTED_EDGE ( 'NONE', *, *, #14, .F. ) ;
#3 = APPROVAL_ROLE ( '' ) ;
#4 = FACE_OUTER_BOUND ( 'NONE', #137, .T. ) ;
#5 = DIRECTION ( 'NONE',  ( 0.000000000000000000, 0.000000000000000000, -1.000000000000000000 ) ) ;
#6 = CIRCLE ( 'NONE', #238, 21.65000000000000213 ) ;
#7 = EDGE_CURVE ( 'NONE', #122, #22, #241, .T. ) ;
#8 = DIRECTION ( 'NONE',  ( 1.000000000000000000, 0.000000000000000000, 0.000000000000000000 ) ) ;
#9 = PERSON_AND_ORGANIZATION ( #41, #170 ) ;
#10 = ORIENTED_EDGE ( 'NONE', *, *, #112, .T. ) ;
#11 = CARTESIAN_POINT ( 'NONE',  ( -21.65000000000000213, 0.000000000000000000, 269.9999999999999432 ) ) ;
#12 = CARTESIAN_POINT ( 'NONE',  ( 0.000000000000000000, 0.000000000000000000, 269.9999999999999432 ) ) ;
#13 = APPROVAL_PERSON_ORGANIZATION ( #114, #51, #225 ) ;
#14 = EDGE_CURVE ( 'NONE', #176, #53, #71, .T. ) ;
#15 = CC_DESIGN_APPROVAL ( #228, ( #99 ) ) ;
#16 = AXIS2_PLACEMENT_3D ( 'NONE', #12, #79, #8 ) ;
#17 = EDGE_LOOP ( 'NONE', ( #2, #248 ) ) ;
#18 = DESIGN_CONTEXT ( 'detailed design', #245, 'design' ) ;
#19 = DIRECTION ( 'NONE',  ( -1.000000000000000000, 0.000000000000000000, 0.000000000000000000 ) ) ;
#20 = APPROVAL ( #104, 'UNSPECIFIED' ) ;
#21 =( NAMED_UNIT ( * ) PLANE_ANGLE_UNIT ( ) SI_UNIT ( $, .RADIAN. ) );
#22 = VERTEX_POINT ( 'NONE', #222 ) ;
#23 = EDGE_CURVE ( 'NONE', #22, #57, #6, .T. ) ;
#24 = DIRECTION ( 'NONE',  ( 1.000000000000000000, 0.000000000000000000, 0.000000000000000000 ) ) ;
#25 = AXIS2_PLACEMENT_3D ( 'NONE', #38, #172, #121 ) ;
#26 = DIRECTION ( 'NONE',  ( 1.000000000000000000, 0.000000000000000000, 0.000000000000000000 ) ) ;
#27 = DATE_TIME_ROLE ( 'classification_date' ) ;
#28 = FACE_BOUND ( 'NONE', #93, .T. ) ;
#29 = DIRECTION ( 'NONE',  ( 0.000000000000000000, 0.000000000000000000, 1.000000000000000000 ) ) ;
#30 = CALENDAR_DATE ( 2024, 1, 7 ) ;
#31 = AXIS2_PLACEMENT_3D ( 'NONE', #85, #132, #103 ) ;
#32 = CALENDAR_DATE ( 2024, 1, 7 ) ;
#33 = CC_DESIGN_SECURITY_CLASSIFICATION ( #158, ( #59 ) ) ;
#34 = AXIS2_PLACEMENT_3D ( 'NONE', #166, #100, #162 ) ;
#35 = PERSON_AND_ORGANIZATION_ROLE ( 'creator' ) ;
#36 = ORIENTED_EDGE ( 'NONE', *, *, #142, .T. ) ;
#37 = MANIFOLD_SOLID_BREP ( 'Basis-Linear austragen', #86 ) ;
#38 = CARTESIAN_POINT ( 'NONE',  ( 0.000000000000000000, 0.000000000000000000, 0.000000000000000000 ) ) ;
#39 = CC_DESIGN_PERSON_AND_ORGANIZATION_ASSIGNMENT ( #49, #127, ( #158 ) ) ;
#40 = DIRECTION ( 'NONE',  ( 0.000000000000000000, 0.000000000000000000, -1.000000000000000000 ) ) ;
#41 = PERSON ( 'UNSPECIFIED', 'UNSPECIFIED', 'UNSPECIFIED', ('UNSPECIFIED'), ('UNSPECIFIED'), ('UNSPECIFIED') ) ;
#42 = CC_DESIGN_APPROVAL ( #51, ( #59 ) ) ;
#43 = APPROVAL_DATE_TIME ( #54, #228 ) ;
#44 = DIRECTION ( 'NONE',  ( 0.000000000000000000, 0.000000000000000000, -1.000000000000000000 ) ) ;
#45 = PLANE ( 'NONE',  #16 ) ;
#46 = LOCAL_TIME ( 15, 14, 58.00000000000000000, #123 ) ;
#47 = DIRECTION ( 'NONE',  ( -1.000000000000000000, 0.000000000000000000, 0.000000000000000000 ) ) ;
#48 = CARTESIAN_POINT ( 'NONE',  ( 0.000000000000000000, 0.000000000000000000, 0.000000000000000000 ) ) ;
#49 = PERSON_AND_ORGANIZATION ( #41, #170 ) ;
#50 = AXIS2_PLACEMENT_3D ( 'NONE', #213, #118, #229 ) ;
#51 = APPROVAL ( #207, 'UNSPECIFIED' ) ;
#52 = CIRCLE ( 'NONE', #50, 21.65000000000000213 ) ;
#53 = VERTEX_POINT ( 'NONE', #68 ) ;
#54 = DATE_AND_TIME ( #217, #169 ) ;
#55 = ORIENTED_EDGE ( 'NONE', *, *, #151, .F. ) ;
#56 = PERSON_AND_ORGANIZATION_ROLE ( 'design_owner' ) ;
#57 = VERTEX_POINT ( 'NONE', #202 ) ;
#58 = PERSON_AND_ORGANIZATION ( #41, #170 ) ;
#59 = PRODUCT_DEFINITION_FORMATION_WITH_SPECIFIED_SOURCE ( 'ANY', '', #110, .NOT_KNOWN. ) ;
#60 = DIRECTION ( 'NONE',  ( 0.000000000000000000, 0.000000000000000000, 1.000000000000000000 ) ) ;
#61 = CARTESIAN_POINT ( 'NONE',  ( 0.000000000000000000, 0.000000000000000000, 269.9999999999999432 ) ) ;
#62 = CARTESIAN_POINT ( 'NONE',  ( 0.000000000000000000, 0.000000000000000000, 269.9999999999999432 ) ) ;
#63 = COORDINATED_UNIVERSAL_TIME_OFFSET ( 1, 0, .AHEAD. ) ;
#64 = DIRECTION ( 'NONE',  ( 0.000000000000000000, 0.000000000000000000, -1.000000000000000000 ) ) ;
#65 = CC_DESIGN_DATE_AND_TIME_ASSIGNMENT ( #134, #27, ( #158 ) ) ;
#66 = DATE_AND_TIME ( #30, #136 ) ;
#67 = VECTOR ( 'NONE', #40, 1000.000000000000000 ) ;
#68 = CARTESIAN_POINT ( 'NONE',  ( 24.14999999999999858, 2.957522019940857930E-15, 0.000000000000000000 ) ) ;
#69 = PERSON_AND_ORGANIZATION_ROLE ( 'design_supplier' ) ;
#70 = ADVANCED_FACE ( 'NONE', ( #128 ), #182, .F. ) ;
#71 = CIRCLE ( 'NONE', #31, 24.14999999999999858 ) ;
#72 = AXIS2_PLACEMENT_3D ( 'NONE', #205, #206, #183 ) ;
#73 = CC_DESIGN_PERSON_AND_ORGANIZATION_ASSIGNMENT ( #131, #69, ( #59 ) ) ;
#74 = DIRECTION ( 'NONE',  ( 0.000000000000000000, 0.000000000000000000, 1.000000000000000000 ) ) ;
#75 = ORIENTED_EDGE ( 'NONE', *, *, #7, .F. ) ;
#76 = CARTESIAN_POINT ( 'NONE',  ( -24.14999999999999858, 0.000000000000000000, 269.9999999999999432 ) ) ;
#77 = ORIENTED_EDGE ( 'NONE', *, *, #142, .F. ) ;
#78 = COORDINATED_UNIVERSAL_TIME_OFFSET ( 1, 0, .AHEAD. ) ;
#79 = DIRECTION ( 'NONE',  ( 0.000000000000000000, 0.000000000000000000, 1.000000000000000000 ) ) ;
#80 = CARTESIAN_POINT ( 'NONE',  ( -24.14999999999999858, 0.000000000000000000, 0.000000000000000000 ) ) ;
#81 = SECURITY_CLASSIFICATION_LEVEL ( 'unclassified' ) ;
#82 = CARTESIAN_POINT ( 'NONE',  ( 21.65000000000000213, 2.651360320154019665E-15, 269.9999999999999432 ) ) ;
#83 = CC_DESIGN_PERSON_AND_ORGANIZATION_ASSIGNMENT ( #201, #35, ( #99 ) ) ;
#84 = DATE_AND_TIME ( #32, #223 ) ;
#85 = CARTESIAN_POINT ( 'NONE',  ( 0.000000000000000000, 0.000000000000000000, 0.000000000000000000 ) ) ;
#86 = CLOSED_SHELL ( 'NONE', ( #185, #126, #159, #90, #226, #70 ) ) ;
#87 = PERSON_AND_ORGANIZATION ( #41, #170 ) ;
#88 = APPLICATION_CONTEXT ( 'configuration controlled 3d designs of mechanical parts and assemblies' ) ;
#89 =( GEOMETRIC_REPRESENTATION_CONTEXT ( 3 ) GLOBAL_UNCERTAINTY_ASSIGNED_CONTEXT ( ( #190 ) ) GLOBAL_UNIT_ASSIGNED_CONTEXT ( ( #233, #21, #156 ) ) REPRESENTATION_CONTEXT ( 'NONE', 'WORKASPACE' ) );
#90 = ADVANCED_FACE ( 'NONE', ( #146, #28 ), #107, .F. ) ;
#91 = EDGE_LOOP ( 'NONE', ( #173, #55 ) ) ;
#92 = DIRECTION ( 'NONE',  ( 1.000000000000000000, 0.000000000000000000, 0.000000000000000000 ) ) ;
#93 = EDGE_LOOP ( 'NONE', ( #161, #236 ) ) ;
#94 = FACE_OUTER_BOUND ( 'NONE', #195, .T. ) ;
#95 = ORIENTED_EDGE ( 'NONE', *, *, #151, .T. ) ;
#96 = AXIS2_PLACEMENT_3D ( 'NONE', #143, #231, #19 ) ;
#97 = CARTESIAN_POINT ( 'NONE',  ( -21.65000000000000213, 0.000000000000000000, 269.9999999999999432 ) ) ;
#98 = VERTEX_POINT ( 'NONE', #224 ) ;
#99 = PRODUCT_DEFINITION ( 'UNKNOWN', '', #59, #18 ) ;
#100 = DIRECTION ( 'NONE',  ( 0.000000000000000000, 0.000000000000000000, -1.000000000000000000 ) ) ;
#101 = ORIENTED_EDGE ( 'NONE', *, *, #246, .T. ) ;
#102 = CALENDAR_DATE ( 2024, 1, 7 ) ;
#103 = DIRECTION ( 'NONE',  ( 1.000000000000000000, 0.000000000000000000, 0.000000000000000000 ) ) ;
#104 = APPROVAL_STATUS ( 'not_yet_approved' ) ;
#105 = DIRECTION ( 'NONE',  ( 1.000000000000000000, 0.000000000000000000, 0.000000000000000000 ) ) ;
#106 = CARTESIAN_POINT ( 'NONE',  ( 0.000000000000000000, 0.000000000000000000, 269.9999999999999432 ) ) ;
#107 = PLANE ( 'NONE',  #72 ) ;
#108 = APPROVAL_DATE_TIME ( #84, #20 ) ;
#109 = APPROVAL_ROLE ( '' ) ;
#110 = PRODUCT ( '0520120000', '0520120000', '', ( #214 ) ) ;
#111 = VECTOR ( 'NONE', #5, 1000.000000000000000 ) ;
#112 = EDGE_CURVE ( 'NONE', #98, #53, #218, .T. ) ;
#113 = VERTEX_POINT ( 'NONE', #11 ) ;
#114 = PERSON_AND_ORGANIZATION ( #41, #170 ) ;
#115 = EDGE_LOOP ( 'NONE', ( #75, #95, #196, #194 ) ) ;
#116 = DIRECTION ( 'NONE',  ( 1.000000000000000000, 0.000000000000000000, 0.000000000000000000 ) ) ;
#117 = ORIENTED_EDGE ( 'NONE', *, *, #246, .F. ) ;
#118 = DIRECTION ( 'NONE',  ( 0.000000000000000000, 0.000000000000000000, 1.000000000000000000 ) ) ;
#119 = ORIENTED_EDGE ( 'NONE', *, *, #153, .F. ) ;
#120 = AXIS2_PLACEMENT_3D ( 'NONE', #160, #60, #116 ) ;
#121 = DIRECTION ( 'NONE',  ( 1.000000000000000000, 0.000000000000000000, 0.000000000000000000 ) ) ;
#122 = VERTEX_POINT ( 'NONE', #82 ) ;
#123 = COORDINATED_UNIVERSAL_TIME_OFFSET ( 1, 0, .AHEAD. ) ;
#124 = PRODUCT_DEFINITION_SHAPE ( 'NONE', 'NONE',  #99 ) ;
#125 = FACE_OUTER_BOUND ( 'NONE', #200, .T. ) ;
#126 = ADVANCED_FACE ( 'NONE', ( #4 ), #203, .T. ) ;
#127 = PERSON_AND_ORGANIZATION_ROLE ( 'classification_officer' ) ;
#128 = FACE_OUTER_BOUND ( 'NONE', #115, .T. ) ;
#129 = AXIS2_PLACEMENT_3D ( 'NONE', #61, #64, #167 ) ;
#130 = DIRECTION ( 'NONE',  ( 0.000000000000000000, 0.000000000000000000, -1.000000000000000000 ) ) ;
#131 = PERSON_AND_ORGANIZATION ( #41, #170 ) ;
#132 = DIRECTION ( 'NONE',  ( 0.000000000000000000, 0.000000000000000000, 1.000000000000000000 ) ) ;
#133 = COORDINATED_UNIVERSAL_TIME_OFFSET ( 1, 0, .AHEAD. ) ;
#134 = DATE_AND_TIME ( #165, #191 ) ;
#135 = AXIS2_PLACEMENT_3D ( 'NONE', #48, #29, #105 ) ;
#136 = LOCAL_TIME ( 15, 14, 58.00000000000000000, #63 ) ;
#137 = EDGE_LOOP ( 'NONE', ( #117, #10, #198, #212 ) ) ;
#138 = DATE_TIME_ROLE ( 'creation_date' ) ;
#139 = APPROVAL_PERSON_ORGANIZATION ( #199, #228, #3 ) ;
#140 = ORIENTED_EDGE ( 'NONE', *, *, #192, .T. ) ;
#141 = APPLICATION_PROTOCOL_DEFINITION ( 'international standard', 'config_control_design', 1994, #88 ) ;
#142 = EDGE_CURVE ( 'NONE', #216, #98, #211, .T. ) ;
#143 = CARTESIAN_POINT ( 'NONE',  ( 0.000000000000000000, 0.000000000000000000, 269.9999999999999432 ) ) ;
#144 = ORIENTED_EDGE ( 'NONE', *, *, #112, .F. ) ;
#145 = CARTESIAN_POINT ( 'NONE',  ( 0.000000000000000000, 0.000000000000000000, 0.000000000000000000 ) ) ;
#146 = FACE_OUTER_BOUND ( 'NONE', #17, .T. ) ;
#147 = DIRECTION ( 'NONE',  ( 0.000000000000000000, 0.000000000000000000, -1.000000000000000000 ) ) ;
#148 = APPROVAL_PERSON_ORGANIZATION ( #9, #20, #109 ) ;
#149 = DIRECTION ( 'NONE',  ( 0.000000000000000000, 0.000000000000000000, 1.000000000000000000 ) ) ;
#150 = APPROVAL_DATE_TIME ( #66, #51 ) ;
#151 = EDGE_CURVE ( 'NONE', #122, #113, #157, .T. ) ;
#152 = VECTOR ( 'NONE', #130, 1000.000000000000000 ) ;
#153 = EDGE_CURVE ( 'NONE', #57, #22, #208, .T. ) ;
#154 = VECTOR ( 'NONE', #147, 1000.000000000000000 ) ;
#155 = ADVANCED_BREP_SHAPE_REPRESENTATION ( '0520120000', ( #37, #25 ), #89 ) ;
#156 =( NAMED_UNIT ( * ) SI_UNIT ( $, .STERADIAN. ) SOLID_ANGLE_UNIT ( ) );
#157 = CIRCLE ( 'NONE', #187, 21.65000000000000213 ) ;
#158 = SECURITY_CLASSIFICATION ( '', '', #81 ) ;
#159 = ADVANCED_FACE ( 'NONE', ( #125, #186 ), #45, .T. ) ;
#160 = CARTESIAN_POINT ( 'NONE',  ( 0.000000000000000000, 0.000000000000000000, 0.000000000000000000 ) ) ;
#161 = ORIENTED_EDGE ( 'NONE', *, *, #153, .T. ) ;
#162 = DIRECTION ( 'NONE',  ( -1.000000000000000000, 0.000000000000000000, 0.000000000000000000 ) ) ;
#163 = CARTESIAN_POINT ( 'NONE',  ( 24.14999999999999858, 2.957522019940857930E-15, 269.9999999999999432 ) ) ;
#164 = FACE_OUTER_BOUND ( 'NONE', #171, .T. ) ;
#165 = CALENDAR_DATE ( 2024, 1, 7 ) ;
#166 = CARTESIAN_POINT ( 'NONE',  ( 0.000000000000000000, 0.000000000000000000, 269.9999999999999432 ) ) ;
#167 = DIRECTION ( 'NONE',  ( -1.000000000000000000, 0.000000000000000000, 0.000000000000000000 ) ) ;
#168 = CC_DESIGN_PERSON_AND_ORGANIZATION_ASSIGNMENT ( #87, #204, ( #59 ) ) ;
#169 = LOCAL_TIME ( 15, 14, 58.00000000000000000, #78 ) ;
#170 = ORGANIZATION ( 'UNSPECIFIED', 'UNSPECIFIED', '' ) ;
#171 = EDGE_LOOP ( 'NONE', ( #178, #227, #119, #249 ) ) ;
#172 = DIRECTION ( 'NONE',  ( 0.000000000000000000, 0.000000000000000000, 1.000000000000000000 ) ) ;
#173 = ORIENTED_EDGE ( 'NONE', *, *, #210, .F. ) ;
#174 = PRODUCT_RELATED_PRODUCT_CATEGORY ( 'detail', '', ( #110 ) ) ;
#175 = CARTESIAN_POINT ( 'NONE',  ( 0.000000000000000000, 0.000000000000000000, 269.9999999999999432 ) ) ;
#176 = VERTEX_POINT ( 'NONE', #80 ) ;
#177 = LINE ( 'NONE', #97, #111 ) ;
#178 = ORIENTED_EDGE ( 'NONE', *, *, #210, .T. ) ;
#179 = APPROVAL_STATUS ( 'not_yet_approved' ) ;
#180 = CARTESIAN_POINT ( 'NONE',  ( 0.000000000000000000, 0.000000000000000000, 269.9999999999999432 ) ) ;
#181 = DATE_AND_TIME ( #102, #46 ) ;
#182 = CYLINDRICAL_SURFACE ( 'NONE', #230, 21.65000000000000213 ) ;
#183 = DIRECTION ( 'NONE',  ( 1.000000000000000000, 0.000000000000000000, 0.000000000000000000 ) ) ;
#184 = CARTESIAN_POINT ( 'NONE',  ( 21.65000000000000213, 2.651360320154019665E-15, 269.9999999999999432 ) ) ;
#185 = ADVANCED_FACE ( 'NONE', ( #164 ), #240, .F. ) ;
#186 = FACE_BOUND ( 'NONE', #91, .T. ) ;
#187 = AXIS2_PLACEMENT_3D ( 'NONE', #180, #219, #26 ) ;
#188 = SHAPE_DEFINITION_REPRESENTATION ( #124, #155 ) ;
#189 = CC_DESIGN_DATE_AND_TIME_ASSIGNMENT ( #181, #138, ( #99 ) ) ;
#190 = UNCERTAINTY_MEASURE_WITH_UNIT (LENGTH_MEASURE( 1.000000000000000082E-05 ), #233, 'distance_accuracy_value', 'NONE');
#191 = LOCAL_TIME ( 15, 14, 58.00000000000000000, #133 ) ;
#192 = EDGE_CURVE ( 'NONE', #216, #176, #215, .T. ) ;
#193 = CIRCLE ( 'NONE', #120, 24.14999999999999858 ) ;
#194 = ORIENTED_EDGE ( 'NONE', *, *, #23, .F. ) ;
#195 = EDGE_LOOP ( 'NONE', ( #144, #77, #140, #232 ) ) ;
#196 = ORIENTED_EDGE ( 'NONE', *, *, #220, .T. ) ;
#197 = CYLINDRICAL_SURFACE ( 'NONE', #96, 24.14999999999999858 ) ;
#198 = ORIENTED_EDGE ( 'NONE', *, *, #235, .T. ) ;
#199 = PERSON_AND_ORGANIZATION ( #41, #170 ) ;
#200 = EDGE_LOOP ( 'NONE', ( #36, #101 ) ) ;
#201 = PERSON_AND_ORGANIZATION ( #41, #170 ) ;
#202 = CARTESIAN_POINT ( 'NONE',  ( -21.65000000000000213, 0.000000000000000000, 0.000000000000000000 ) ) ;
#203 = CYLINDRICAL_SURFACE ( 'NONE', #129, 24.14999999999999858 ) ;
#204 = PERSON_AND_ORGANIZATION_ROLE ( 'creator' ) ;
#205 = CARTESIAN_POINT ( 'NONE',  ( 0.000000000000000000, 0.000000000000000000, 0.000000000000000000 ) ) ;
#206 = DIRECTION ( 'NONE',  ( 0.000000000000000000, 0.000000000000000000, 1.000000000000000000 ) ) ;
#207 = APPROVAL_STATUS ( 'not_yet_approved' ) ;
#208 = CIRCLE ( 'NONE', #135, 21.65000000000000213 ) ;
#209 = CC_DESIGN_PERSON_AND_ORGANIZATION_ASSIGNMENT ( #58, #56, ( #110 ) ) ;
#210 = EDGE_CURVE ( 'NONE', #113, #122, #52, .T. ) ;
#211 = CIRCLE ( 'NONE', #247, 24.14999999999999858 ) ;
#212 = ORIENTED_EDGE ( 'NONE', *, *, #192, .F. ) ;
#213 = CARTESIAN_POINT ( 'NONE',  ( 0.000000000000000000, 0.000000000000000000, 269.9999999999999432 ) ) ;
#214 = MECHANICAL_CONTEXT ( 'NONE', #88, 'mechanical' ) ;
#215 = LINE ( 'NONE', #237, #67 ) ;
#216 = VERTEX_POINT ( 'NONE', #76 ) ;
#217 = CALENDAR_DATE ( 2024, 1, 7 ) ;
#218 = LINE ( 'NONE', #163, #152 ) ;
#219 = DIRECTION ( 'NONE',  ( 0.000000000000000000, 0.000000000000000000, 1.000000000000000000 ) ) ;
#220 = EDGE_CURVE ( 'NONE', #113, #57, #177, .T. ) ;
#221 = COORDINATED_UNIVERSAL_TIME_OFFSET ( 1, 0, .AHEAD. ) ;
#222 = CARTESIAN_POINT ( 'NONE',  ( 21.65000000000000213, 2.651360320154019665E-15, 0.000000000000000000 ) ) ;
#223 = LOCAL_TIME ( 15, 14, 58.00000000000000000, #221 ) ;
#224 = CARTESIAN_POINT ( 'NONE',  ( 24.14999999999999858, 2.957522019940857930E-15, 269.9999999999999432 ) ) ;
#225 = APPROVAL_ROLE ( '' ) ;
#226 = ADVANCED_FACE ( 'NONE', ( #94 ), #197, .T. ) ;
#227 = ORIENTED_EDGE ( 'NONE', *, *, #7, .T. ) ;
#228 = APPROVAL ( #179, 'UNSPECIFIED' ) ;
#229 = DIRECTION ( 'NONE',  ( 1.000000000000000000, 0.000000000000000000, 0.000000000000000000 ) ) ;
#230 = AXIS2_PLACEMENT_3D ( 'NONE', #62, #44, #47 ) ;
#231 = DIRECTION ( 'NONE',  ( 0.000000000000000000, 0.000000000000000000, -1.000000000000000000 ) ) ;
#232 = ORIENTED_EDGE ( 'NONE', *, *, #14, .T. ) ;
#233 =( LENGTH_UNIT ( ) NAMED_UNIT ( * ) SI_UNIT ( .MILLI., .METRE. ) );
#234 = APPLICATION_PROTOCOL_DEFINITION ( 'international standard', 'config_control_design', 1994, #245 ) ;
#235 = EDGE_CURVE ( 'NONE', #53, #176, #193, .T. ) ;
#236 = ORIENTED_EDGE ( 'NONE', *, *, #23, .T. ) ;
#237 = CARTESIAN_POINT ( 'NONE',  ( -24.14999999999999858, 0.000000000000000000, 269.9999999999999432 ) ) ;
#238 = AXIS2_PLACEMENT_3D ( 'NONE', #145, #242, #239 ) ;
#239 = DIRECTION ( 'NONE',  ( 1.000000000000000000, 0.000000000000000000, 0.000000000000000000 ) ) ;
#240 = CYLINDRICAL_SURFACE ( 'NONE', #34, 21.65000000000000213 ) ;
#241 = LINE ( 'NONE', #184, #154 ) ;
#242 = DIRECTION ( 'NONE',  ( 0.000000000000000000, 0.000000000000000000, 1.000000000000000000 ) ) ;
#243 = CIRCLE ( 'NONE', #244, 24.14999999999999858 ) ;
#244 = AXIS2_PLACEMENT_3D ( 'NONE', #175, #74, #92 ) ;
#245 = APPLICATION_CONTEXT ( 'configuration controlled 3d designs of mechanical parts and assemblies' ) ;
#246 = EDGE_CURVE ( 'NONE', #98, #216, #243, .T. ) ;
#247 = AXIS2_PLACEMENT_3D ( 'NONE', #106, #149, #24 ) ;
#248 = ORIENTED_EDGE ( 'NONE', *, *, #235, .F. ) ;
#249 = ORIENTED_EDGE ( 'NONE', *, *, #220, .F. ) ;
ENDSEC;
END-ISO-10303-21;
