ISO-10303-21;
HEADER;
FILE_DESCRIPTION (( 'STEP AP214' ),
    '1' );
FILE_NAME ('0529470211.STEP',
    '2024-07-10T06:43:25',
    ( '' ),
    ( '' ),
    'SwSTEP 2.0',
    'SolidWorks 2022',
    '' );
FILE_SCHEMA (( 'AUTOMOTIVE_DESIGN' ));
ENDSEC;

DATA;
#1 = ADVANCED_FACE ( 'NONE', ( #11 ), #128, .F. ) ;
#2 = PRESENTATION_STYLE_ASSIGNMENT (( #123 ) ) ;
#3 = FILL_AREA_STYLE ('',( #144 ) ) ;
#4 = VERTEX_POINT ( 'NONE', #95 ) ;
#5 = DIRECTION ( 'NONE',  ( 1.040834085586084257E-17, -8.673617379884035472E-19, -1.000000000000000000 ) ) ;
#6 = ORIENTED_EDGE ( 'NONE', *, *, #64, .F. ) ;
#7 = DIRECTION ( 'NONE',  ( 1.000000000000000000, 0.000000000000000000, 0.000000000000000000 ) ) ;
#8 = CARTESIAN_POINT ( 'NONE',  ( -414.9999999999998295, 1.387778780781445676E-14, 2.999999999999891642 ) ) ;
#9 = EDGE_CURVE ( 'NONE', #235, #187, #294, .T. ) ;
#10 = ORIENTED_EDGE ( 'NONE', *, *, #175, .F. ) ;
#11 = FACE_OUTER_BOUND ( 'NONE', #264, .T. ) ;
#12 = EDGE_LOOP ( 'NONE', ( #6, #62, #247, #63 ) ) ;
#13 = VERTEX_POINT ( 'NONE', #242 ) ;
#14 = CIRCLE ( 'NONE', #359, 5.500000000000005329 ) ;
#15 = PRODUCT_RELATED_PRODUCT_CATEGORY ( 'part', '', ( #253 ) ) ;
#16 = SURFACE_SIDE_STYLE ('',( #162 ) ) ;
#17 = ORIENTED_EDGE ( 'NONE', *, *, #362, .T. ) ;
#18 = DIRECTION ( 'NONE',  ( 1.000000000000000000, -2.775557561562891351E-17, 0.000000000000000000 ) ) ;
#19 = DIRECTION ( 'NONE',  ( -1.000000000000000000, 2.775557561562891967E-17, 1.040834085586084565E-17 ) ) ;
#20 = FILL_AREA_STYLE_COLOUR ( '', #288 ) ;
#21 = ADVANCED_FACE ( 'NONE', ( #309 ), #337, .T. ) ;
#22 = ADVANCED_BREP_SHAPE_REPRESENTATION ( '0529470211', ( #121, #303 ), #225 ) ;
#23 = PRESENTATION_STYLE_ASSIGNMENT (( #349 ) ) ;
#24 = CARTESIAN_POINT ( 'NONE',  ( 435.5000000000000568, 1.123715434649180696E-14, 3.000000000000030198 ) ) ;
#25 = DIRECTION ( 'NONE',  ( -1.040834085586084257E-17, 8.673617379884035472E-19, 1.000000000000000000 ) ) ;
#26 = CYLINDRICAL_SURFACE ( 'NONE', #231, 5.500000000000005329 ) ;
#27 = CARTESIAN_POINT ( 'NONE',  ( -440.9999999999998295, 1.387778780781445676E-14, 3.000000000000002665 ) ) ;
#28 = EDGE_CURVE ( 'NONE', #282, #280, #34, .T. ) ;
#29 = CARTESIAN_POINT ( 'NONE',  ( 455.0000000000000568, 15.00000000000004796, 3.000000000000002665 ) ) ;
#30 = LINE ( 'NONE', #178, #250 ) ;
#31 = LINE ( 'NONE', #369, #176 ) ;
#32 =( NAMED_UNIT ( * ) PLANE_ANGLE_UNIT ( ) SI_UNIT ( $, .RADIAN. ) );
#33 = VERTEX_POINT ( 'NONE', #147 ) ;
#34 = CIRCLE ( 'NONE', #115, 39.99999999999992184 ) ;
#35 = EDGE_CURVE ( 'NONE', #182, #316, #31, .T. ) ;
#36 = DIRECTION ( 'NONE',  ( -1.040834085586084257E-17, 8.673617379884035472E-19, 1.000000000000000000 ) ) ;
#37 = COLOUR_RGB ( '',0.5294117647058823595, 0.5490196078431373028, 0.5490196078431373028 ) ;
#38 = EDGE_LOOP ( 'NONE', ( #254, #50, #299, #201, #333 ) ) ;
#39 = DIRECTION ( 'NONE',  ( -1.000000000000000000, 2.775557561562891351E-17, 0.000000000000000000 ) ) ;
#40 = ORIENTED_EDGE ( 'NONE', *, *, #79, .F. ) ;
#41 = LINE ( 'NONE', #281, #204 ) ;
#42 = EDGE_CURVE ( 'NONE', #182, #215, #338, .T. ) ;
#43 = ORIENTED_EDGE ( 'NONE', *, *, #322, .F. ) ;
#44 = CARTESIAN_POINT ( 'NONE',  ( 455.0000000000001705, -14.99999999999993605, 3.000000000000002665 ) ) ;
#45 = VECTOR ( 'NONE', #287, 1000.000000000000000 ) ;
#46 = VERTEX_POINT ( 'NONE', #184 ) ;
#47 = FACE_BOUND ( 'NONE', #90, .T. ) ;
#48 = MECHANICAL_DESIGN_GEOMETRIC_PRESENTATION_REPRESENTATION (  '', ( #371 ), #217 ) ;
#49 = CARTESIAN_POINT ( 'NONE',  ( -454.9999999999998295, 1.498801083243961014E-14, 1148.642675590367389 ) ) ;
#50 = ORIENTED_EDGE ( 'NONE', *, *, #158, .T. ) ;
#51 = CARTESIAN_POINT ( 'NONE',  ( 455.0000000000000568, 15.00000000000005507, -3.000000000000002665 ) ) ;
#52 = ADVANCED_FACE ( 'NONE', ( #312, #363, #278 ), #218, .F. ) ;
#53 = DIRECTION ( 'NONE',  ( -1.000000000000000000, 2.775557561562891351E-17, 1.084202172485506591E-17 ) ) ;
#54 = ORIENTED_EDGE ( 'NONE', *, *, #132, .F. ) ;
#55 = AXIS2_PLACEMENT_3D ( 'NONE', #325, #324, #53 ) ;
#56 = DIRECTION ( 'NONE',  ( 1.000000000000000000, -2.775557561562919084E-17, 0.000000000000000000 ) ) ;
#57 = DIRECTION ( 'NONE',  ( -1.000000000000000000, 2.775557561562891351E-17, 1.084202172485506591E-17 ) ) ;
#58 = CARTESIAN_POINT ( 'NONE',  ( -440.9999999999997158, 4.163336342344337027E-14, -2.999999999999975131 ) ) ;
#59 = ORIENTED_EDGE ( 'NONE', *, *, #86, .F. ) ;
#60 = CIRCLE ( 'NONE', #377, 5.500000000000005329 ) ;
#61 = DIRECTION ( 'NONE',  ( -1.000000000000000000, 2.775557561562891351E-17, 0.000000000000000000 ) ) ;
#62 = ORIENTED_EDGE ( 'NONE', *, *, #322, .T. ) ;
#63 = ORIENTED_EDGE ( 'NONE', *, *, #351, .F. ) ;
#64 = EDGE_CURVE ( 'NONE', #4, #187, #41, .T. ) ;
#65 = ORIENTED_EDGE ( 'NONE', *, *, #158, .F. ) ;
#66 = AXIS2_PLACEMENT_3D ( 'NONE', #142, #85, #174 ) ;
#67 = DIRECTION ( 'NONE',  ( 1.040834085586084257E-17, -8.673617379884035472E-19, -1.000000000000000000 ) ) ;
#68 = PRODUCT_DEFINITION_FORMATION_WITH_SPECIFIED_SOURCE ( 'ANY', '', #253, .NOT_KNOWN. ) ;
#69 = ORIENTED_EDGE ( 'NONE', *, *, #86, .T. ) ;
#70 = VERTEX_POINT ( 'NONE', #92 ) ;
#71 = CARTESIAN_POINT ( 'NONE',  ( 455.0000000000000568, 15.00000000000004796, 3.000000000000002665 ) ) ;
#72 = VERTEX_POINT ( 'NONE', #220 ) ;
#73 = CYLINDRICAL_SURFACE ( 'NONE', #83, 5.500000000000005329 ) ;
#74 = AXIS2_PLACEMENT_3D ( 'NONE', #368, #332, #61 ) ;
#75 = CARTESIAN_POINT ( 'NONE',  ( 441.0000000000000000, 1.040834085586084257E-14, -3.000000000000030198 ) ) ;
#76 = DIRECTION ( 'NONE',  ( -1.000000000000000000, 2.775557561562891351E-17, 1.084202172485506591E-17 ) ) ;
#77 = ORIENTED_EDGE ( 'NONE', *, *, #251, .F. ) ;
#78 = FACE_OUTER_BOUND ( 'NONE', #297, .T. ) ;
#79 = EDGE_CURVE ( 'NONE', #215, #33, #226, .T. ) ;
#80 = CARTESIAN_POINT ( 'NONE',  ( -435.4999999999997158, 4.148070775755741124E-14, -2.999999999999975131 ) ) ;
#81 = DIRECTION ( 'NONE',  ( -1.040834085586084257E-17, 8.673617379884035472E-19, 1.000000000000000000 ) ) ;
#82 = ORIENTED_EDGE ( 'NONE', *, *, #98, .F. ) ;
#83 = AXIS2_PLACEMENT_3D ( 'NONE', #75, #284, #18 ) ;
#84 = UNCERTAINTY_MEASURE_WITH_UNIT (LENGTH_MEASURE( 1.000000000000000082E-05 ), #208, 'distance_accuracy_value', 'NONE');
#85 = DIRECTION ( 'NONE',  ( 1.040834085586084257E-17, -8.673617379884035472E-19, -1.000000000000000000 ) ) ;
#86 = EDGE_CURVE ( 'NONE', #46, #165, #156, .T. ) ;
#87 = CARTESIAN_POINT ( 'NONE',  ( 441.0000000000000568, 1.040834085586084257E-14, 3.000000000000030198 ) ) ;
#88 = APPLICATION_CONTEXT ( 'automotive_design' ) ;
#89 = DIRECTION ( 'NONE',  ( -1.000000000000000000, 2.775557561562891351E-17, 0.000000000000000000 ) ) ;
#90 = EDGE_LOOP ( 'NONE', ( #77, #43 ) ) ;
#91 = DIRECTION ( 'NONE',  ( 1.040834085586084257E-17, -8.673617379884035472E-19, -1.000000000000000000 ) ) ;
#92 = CARTESIAN_POINT ( 'NONE',  ( 452.0809924354782652, -14.99999999999990941, -2.999999999999891642 ) ) ;
#93 = EDGE_CURVE ( 'NONE', #215, #182, #60, .T. ) ;
#94 = FACE_OUTER_BOUND ( 'NONE', #155, .T. ) ;
#95 = CARTESIAN_POINT ( 'NONE',  ( 435.5000000000000000, 1.123715434649181485E-14, -3.000000000000030198 ) ) ;
#96 = APPLICATION_PROTOCOL_DEFINITION ( 'draft international standard', 'automotive_design', 1998, #293 ) ;
#97 = DIRECTION ( 'NONE',  ( -1.000000000000000000, -8.326672684688676518E-17, 1.040834085586084565E-17 ) ) ;
#98 = EDGE_CURVE ( 'NONE', #165, #72, #387, .T. ) ;
#99 = MECHANICAL_DESIGN_GEOMETRIC_PRESENTATION_REPRESENTATION (  '', ( #205 ), #320 ) ;
#100 = EDGE_LOOP ( 'NONE', ( #311, #292, #277, #246 ) ) ;
#101 = ORIENTED_EDGE ( 'NONE', *, *, #152, .F. ) ;
#102 =( NAMED_UNIT ( * ) PLANE_ANGLE_UNIT ( ) SI_UNIT ( $, .RADIAN. ) );
#103 = CARTESIAN_POINT ( 'NONE',  ( 1.110223024625156540E-13, 1.387778780781445676E-14, -3.000000000000002665 ) ) ;
#104 = EDGE_CURVE ( 'NONE', #282, #165, #319, .T. ) ;
#105 = PRODUCT_DEFINITION_CONTEXT ( 'detailed design', #293, 'design' ) ;
#106 = CARTESIAN_POINT ( 'NONE',  ( -435.4999999999997158, 4.148070775755741124E-14, -2.999999999999975131 ) ) ;
#107 = LINE ( 'NONE', #44, #296 ) ;
#108 = EDGE_CURVE ( 'NONE', #280, #124, #107, .T. ) ;
#109 = DIRECTION ( 'NONE',  ( -1.000000000000000000, 2.775557561562891351E-17, 0.000000000000000000 ) ) ;
#110 = ORIENTED_EDGE ( 'NONE', *, *, #228, .T. ) ;
#111 = AXIS2_PLACEMENT_3D ( 'NONE', #58, #230, #301 ) ;
#112 = DIRECTION ( 'NONE',  ( 1.000000000000000000, -2.775557561562891351E-17, 0.000000000000000000 ) ) ;
#113 = CYLINDRICAL_SURFACE ( 'NONE', #257, 5.500000000000005329 ) ;
#114 = CARTESIAN_POINT ( 'NONE',  ( 441.0000000000000000, 1.040834085586084257E-14, -3.000000000000030198 ) ) ;
#115 = AXIS2_PLACEMENT_3D ( 'NONE', #8, #36, #307 ) ;
#116 = ADVANCED_FACE ( 'NONE', ( #164 ), #73, .F. ) ;
#117 = AXIS2_PLACEMENT_3D ( 'NONE', #227, #255, #76 ) ;
#118 = CARTESIAN_POINT ( 'NONE',  ( -446.4999999999998295, 4.246217691407498153E-14, 3.000000000000002665 ) ) ;
#119 = EDGE_CURVE ( 'NONE', #13, #282, #183, .T. ) ;
#120 = ORIENTED_EDGE ( 'NONE', *, *, #28, .F. ) ;
#121 = MANIFOLD_SOLID_BREP ( 'Spiegeln1', #381 ) ;
#122 = CIRCLE ( 'NONE', #353, 5.500000000000005329 ) ;
#123 = SURFACE_STYLE_USAGE ( .BOTH. , #146 ) ;
#124 = VERTEX_POINT ( 'NONE', #229 ) ;
#125 =( NAMED_UNIT ( * ) SI_UNIT ( $, .STERADIAN. ) SOLID_ANGLE_UNIT ( ) );
#126 = DIRECTION ( 'NONE',  ( 1.000000000000000000, -2.775557561562919084E-17, 0.000000000000000000 ) ) ;
#127 = ORIENTED_EDGE ( 'NONE', *, *, #9, .T. ) ;
#128 = PLANE ( 'NONE',  #249 ) ;
#129 = ORIENTED_EDGE ( 'NONE', *, *, #195, .T. ) ;
#130 = VECTOR ( 'NONE', #295, 1000.000000000000000 ) ;
#131 = ORIENTED_EDGE ( 'NONE', *, *, #262, .T. ) ;
#132 = EDGE_CURVE ( 'NONE', #72, #70, #191, .T. ) ;
#133 =( LENGTH_UNIT ( ) NAMED_UNIT ( * ) SI_UNIT ( .MILLI., .METRE. ) );
#134 = CARTESIAN_POINT ( 'NONE',  ( -440.9999999999997158, 4.163336342344337027E-14, -2.999999999999975131 ) ) ;
#135 = VECTOR ( 'NONE', #268, 1000.000000000000000 ) ;
#136 = CARTESIAN_POINT ( 'NONE',  ( -454.9999999999998295, 1.399172212501190126E-14, -2.999999999999864109 ) ) ;
#137 = LINE ( 'NONE', #51, #364 ) ;
#138 = CIRCLE ( 'NONE', #66, 5.500000000000005329 ) ;
#139 = DIRECTION ( 'NONE',  ( -1.040834085586084257E-17, 8.673617379884035472E-19, 1.000000000000000000 ) ) ;
#140 = DIRECTION ( 'NONE',  ( -1.000000000000000000, -1.110223024625157033E-16, 1.040834085586084719E-17 ) ) ;
#141 = EDGE_LOOP ( 'NONE', ( #347, #237, #221, #40 ) ) ;
#142 = CARTESIAN_POINT ( 'NONE',  ( 441.0000000000000000, 1.040834085586084257E-14, -3.000000000000030198 ) ) ;
#143 = AXIS2_PLACEMENT_3D ( 'NONE', #103, #259, #19 ) ;
#144 = FILL_AREA_STYLE_COLOUR ( '', #37 ) ;
#145 = DIRECTION ( 'NONE',  ( -1.040834085586084257E-17, 8.673617379884035472E-19, 1.000000000000000000 ) ) ;
#146 = SURFACE_SIDE_STYLE ('',( #306 ) ) ;
#147 = CARTESIAN_POINT ( 'NONE',  ( -435.4999999999998295, 1.372513214192849773E-14, 3.000000000000002665 ) ) ;
#148 = AXIS2_PLACEMENT_3D ( 'NONE', #154, #342, #314 ) ;
#149 = DIRECTION ( 'NONE',  ( -1.040834085586084257E-17, 8.673617379884035472E-19, 1.000000000000000000 ) ) ;
#150 = ORIENTED_EDGE ( 'NONE', *, *, #326, .T. ) ;
#151 = ORIENTED_EDGE ( 'NONE', *, *, #152, .T. ) ;
#152 = EDGE_CURVE ( 'NONE', #124, #70, #352, .T. ) ;
#153 = ORIENTED_EDGE ( 'NONE', *, *, #35, .F. ) ;
#154 = CARTESIAN_POINT ( 'NONE',  ( 1.110223024625156540E-13, 1.387778780781445676E-14, 3.000000000000002665 ) ) ;
#155 = EDGE_LOOP ( 'NONE', ( #120, #172, #245, #329 ) ) ;
#156 = CIRCLE ( 'NONE', #239, 39.99999999999992184 ) ;
#157 = DIRECTION ( 'NONE',  ( -1.040834085586084257E-17, 8.673617379884035472E-19, 1.000000000000000000 ) ) ;
#158 = EDGE_CURVE ( 'NONE', #331, #13, #373, .T. ) ;
#159 = FACE_OUTER_BOUND ( 'NONE', #167, .T. ) ;
#160 = DIRECTION ( 'NONE',  ( 1.000000000000000000, 1.110223024625157033E-16, -1.040834085586084719E-17 ) ) ;
#161 = AXIS2_PLACEMENT_3D ( 'NONE', #186, #212, #126 ) ;
#162 = SURFACE_STYLE_FILL_AREA ( #379 ) ;
#163 = VECTOR ( 'NONE', #160, 1000.000000000000000 ) ;
#164 = FACE_OUTER_BOUND ( 'NONE', #12, .T. ) ;
#165 = VERTEX_POINT ( 'NONE', #136 ) ;
#166 = LINE ( 'NONE', #360, #283 ) ;
#167 = EDGE_LOOP ( 'NONE', ( #383, #131, #54, #82, #59 ) ) ;
#168 = CARTESIAN_POINT ( 'NONE',  ( -454.9999999999997158, 1.399172212501190126E-14, 2.999999999999891198 ) ) ;
#169 = AXIS2_PLACEMENT_3D ( 'NONE', #214, #67, #39 ) ;
#170 = ADVANCED_FACE ( 'NONE', ( #47, #375, #159 ), #376, .T. ) ;
#171 = FACE_OUTER_BOUND ( 'NONE', #100, .T. ) ;
#172 = ORIENTED_EDGE ( 'NONE', *, *, #104, .T. ) ;
#173 = DIRECTION ( 'NONE',  ( 1.040834085586084257E-17, -8.673617379884035472E-19, -1.000000000000000000 ) ) ;
#174 = DIRECTION ( 'NONE',  ( -1.000000000000000000, 2.775557561562891351E-17, 0.000000000000000000 ) ) ;
#175 = EDGE_CURVE ( 'NONE', #33, #316, #310, .T. ) ;
#176 = VECTOR ( 'NONE', #149, 1000.000000000000000 ) ;
#177 = PRESENTATION_LAYER_ASSIGNMENT (  '', '', ( #205 ) ) ;
#178 = CARTESIAN_POINT ( 'NONE',  ( -452.0809924354781515, 15.00000000000002665, 1148.642675590367389 ) ) ;
#179 = EDGE_LOOP ( 'NONE', ( #209, #198, #17, #69 ) ) ;
#180 = PRODUCT_CONTEXT ( 'NONE', #88, 'mechanical' ) ;
#181 = VERTEX_POINT ( 'NONE', #233 ) ;
#182 = VERTEX_POINT ( 'NONE', #266 ) ;
#183 = CIRCLE ( 'NONE', #269, 39.99999999999992184 ) ;
#184 = CARTESIAN_POINT ( 'NONE',  ( -452.0809924354780378, 14.99999999999994316, -2.999999999999891642 ) ) ;
#185 = CARTESIAN_POINT ( 'NONE',  ( -414.9999999999999432, 1.387778780781445676E-14, 1148.642675590367389 ) ) ;
#186 = CARTESIAN_POINT ( 'NONE',  ( -440.9999999999997158, 4.163336342344337027E-14, -2.999999999999975131 ) ) ;
#187 = VERTEX_POINT ( 'NONE', #24 ) ;
#188 = DIRECTION ( 'NONE',  ( 1.040834085586084257E-17, -8.673617379884035472E-19, -1.000000000000000000 ) ) ;
#189 = ORIENTED_EDGE ( 'NONE', *, *, #93, .F. ) ;
#190 = CIRCLE ( 'NONE', #370, 39.99999999999992184 ) ;
#191 = LINE ( 'NONE', #289, #163 ) ;
#192 = PRODUCT_DEFINITION_SHAPE ( 'NONE', 'NONE',  #341 ) ;
#193 = CARTESIAN_POINT ( 'NONE',  ( -414.9999999999999432, 1.387778780781445676E-14, -2.999999999999864109 ) ) ;
#194 = DIRECTION ( 'NONE',  ( -1.000000000000000000, 9.159339953157547375E-16, 1.084202172485506591E-17 ) ) ;
#195 = EDGE_CURVE ( 'NONE', #336, #46, #137, .T. ) ;
#196 = DIRECTION ( 'NONE',  ( -1.040834085586084257E-17, 8.673617379884035472E-19, 1.000000000000000000 ) ) ;
#197 = AXIS2_PLACEMENT_3D ( 'NONE', #185, #91, #89 ) ;
#198 = ORIENTED_EDGE ( 'NONE', *, *, #119, .F. ) ;
#199 = CYLINDRICAL_SURFACE ( 'NONE', #74, 39.99999999999992184 ) ;
#200 = DIRECTION ( 'NONE',  ( 1.040834085586084257E-17, -8.673617379884035472E-19, -1.000000000000000000 ) ) ;
#201 = ORIENTED_EDGE ( 'NONE', *, *, #28, .T. ) ;
#202 = EDGE_CURVE ( 'NONE', #181, #235, #207, .T. ) ;
#203 = FACE_OUTER_BOUND ( 'NONE', #141, .T. ) ;
#204 = VECTOR ( 'NONE', #145, 1000.000000000000000 ) ;
#205 = STYLED_ITEM ( 'NONE', ( #23 ), #121 ) ;
#206 = CARTESIAN_POINT ( 'NONE',  ( 415.0000000000000568, 1.734723475976807094E-14, 2.999999999999864109 ) ) ;
#207 = LINE ( 'NONE', #263, #130 ) ;
#208 =( LENGTH_UNIT ( ) NAMED_UNIT ( * ) SI_UNIT ( .MILLI., .METRE. ) );
#209 = ORIENTED_EDGE ( 'NONE', *, *, #104, .F. ) ;
#210 = VECTOR ( 'NONE', #188, 1000.000000000000000 ) ;
#211 = ORIENTED_EDGE ( 'NONE', *, *, #132, .T. ) ;
#212 = DIRECTION ( 'NONE',  ( -1.040834085586084257E-17, 8.673617379884035472E-19, 1.000000000000000000 ) ) ;
#213 = SHAPE_DEFINITION_REPRESENTATION ( #192, #22 ) ;
#214 = CARTESIAN_POINT ( 'NONE',  ( 441.0000000000000568, 1.040834085586084257E-14, 3.000000000000030198 ) ) ;
#215 = VERTEX_POINT ( 'NONE', #80 ) ;
#216 = AXIS2_PLACEMENT_3D ( 'NONE', #260, #81, #112 ) ;
#217 =( GEOMETRIC_REPRESENTATION_CONTEXT ( 3 ) GLOBAL_UNCERTAINTY_ASSIGNED_CONTEXT ( ( #327 ) ) GLOBAL_UNIT_ASSIGNED_CONTEXT ( ( #272, #340, #244 ) ) REPRESENTATION_CONTEXT ( 'NONE', 'WORKASPACE' ) );
#218 = PLANE ( 'NONE',  #148 ) ;
#219 = ORIENTED_EDGE ( 'NONE', *, *, #108, .F. ) ;
#220 = CARTESIAN_POINT ( 'NONE',  ( -452.0809924354781515, -15.00000000000002665, -2.999999999999891642 ) ) ;
#221 = ORIENTED_EDGE ( 'NONE', *, *, #270, .T. ) ;
#222 = DIRECTION ( 'NONE',  ( -1.040834085586084257E-17, 8.673617379884035472E-19, 1.000000000000000000 ) ) ;
#223 = ORIENTED_EDGE ( 'NONE', *, *, #362, .F. ) ;
#224 = AXIS2_PLACEMENT_3D ( 'NONE', #335, #273, #248 ) ;
#225 =( GEOMETRIC_REPRESENTATION_CONTEXT ( 3 ) GLOBAL_UNCERTAINTY_ASSIGNED_CONTEXT ( ( #84 ) ) GLOBAL_UNIT_ASSIGNED_CONTEXT ( ( #208, #32, #125 ) ) REPRESENTATION_CONTEXT ( 'NONE', 'WORKASPACE' ) );
#226 = LINE ( 'NONE', #106, #258 ) ;
#227 = CARTESIAN_POINT ( 'NONE',  ( -414.9999999999999432, 1.387778780781445676E-14, -2.999999999999864109 ) ) ;
#228 = EDGE_CURVE ( 'NONE', #331, #336, #166, .T. ) ;
#229 = CARTESIAN_POINT ( 'NONE',  ( 452.0809924354782652, -15.00000000000000711, 2.999999999999891642 ) ) ;
#230 = DIRECTION ( 'NONE',  ( -1.040834085586084257E-17, 8.673617379884035472E-19, 1.000000000000000000 ) ) ;
#231 = AXIS2_PLACEMENT_3D ( 'NONE', #300, #25, #56 ) ;
#232 = ORIENTED_EDGE ( 'NONE', *, *, #93, .T. ) ;
#233 = CARTESIAN_POINT ( 'NONE',  ( 446.5000000000000000, 1.025828727518884875E-14, -3.000000000000030198 ) ) ;
#234 = ADVANCED_FACE ( 'NONE', ( #203 ), #323, .F. ) ;
#235 = VERTEX_POINT ( 'NONE', #384 ) ;
#236 = CARTESIAN_POINT ( 'NONE',  ( -452.0809924354780378, -15.00000000000000000, 2.999999999999919176 ) ) ;
#237 = ORIENTED_EDGE ( 'NONE', *, *, #35, .T. ) ;
#238 = CARTESIAN_POINT ( 'NONE',  ( 441.0000000000000000, 1.040834085586084257E-14, -3.000000000000030198 ) ) ;
#239 = AXIS2_PLACEMENT_3D ( 'NONE', #193, #222, #285 ) ;
#240 = EDGE_CURVE ( 'NONE', #280, #72, #291, .T. ) ;
#241 = CARTESIAN_POINT ( 'NONE',  ( 452.0809924354781515, 15.00000000000005507, 2.999999999999919176 ) ) ;
#242 = CARTESIAN_POINT ( 'NONE',  ( -452.0809924354780378, 14.99999999999994316, 2.999999999999919176 ) ) ;
#243 = CIRCLE ( 'NONE', #274, 5.500000000000005329 ) ;
#244 =( NAMED_UNIT ( * ) SI_UNIT ( $, .STERADIAN. ) SOLID_ANGLE_UNIT ( ) );
#245 = ORIENTED_EDGE ( 'NONE', *, *, #98, .T. ) ;
#246 = ORIENTED_EDGE ( 'NONE', *, *, #202, .F. ) ;
#247 = ORIENTED_EDGE ( 'NONE', *, *, #202, .T. ) ;
#248 = DIRECTION ( 'NONE',  ( -1.000000000000000000, 2.775557561562891351E-17, 0.000000000000000000 ) ) ;
#249 = AXIS2_PLACEMENT_3D ( 'NONE', #276, #304, #97 ) ;
#250 = VECTOR ( 'NONE', #5, 1000.000000000000000 ) ;
#251 = EDGE_CURVE ( 'NONE', #181, #4, #122, .T. ) ;
#252 = EDGE_LOOP ( 'NONE', ( #10, #372 ) ) ;
#253 = PRODUCT ( '0529470211', '0529470211', '', ( #180 ) ) ;
#254 = ORIENTED_EDGE ( 'NONE', *, *, #326, .F. ) ;
#255 = DIRECTION ( 'NONE',  ( -1.040834085586084257E-17, 8.673617379884035472E-19, 1.000000000000000000 ) ) ;
#256 = ORIENTED_EDGE ( 'NONE', *, *, #228, .F. ) ;
#257 = AXIS2_PLACEMENT_3D ( 'NONE', #238, #261, #388 ) ;
#258 = VECTOR ( 'NONE', #315, 1000.000000000000000 ) ;
#259 = DIRECTION ( 'NONE',  ( -1.040834085586084565E-17, -8.673617379884029694E-19, -1.000000000000000000 ) ) ;
#260 = CARTESIAN_POINT ( 'NONE',  ( -440.9999999999998295, 1.387778780781445676E-14, 3.000000000000002665 ) ) ;
#261 = DIRECTION ( 'NONE',  ( -1.040834085586084257E-17, 8.673617379884035472E-19, 1.000000000000000000 ) ) ;
#262 = EDGE_CURVE ( 'NONE', #336, #70, #317, .T. ) ;
#263 = CARTESIAN_POINT ( 'NONE',  ( 446.5000000000000000, 1.025568518997488354E-14, -3.000000000000030198 ) ) ;
#264 = EDGE_LOOP ( 'NONE', ( #101, #219, #271, #211 ) ) ;
#265 = UNCERTAINTY_MEASURE_WITH_UNIT (LENGTH_MEASURE( 1.000000000000000082E-05 ), #133, 'distance_accuracy_value', 'NONE');
#266 = CARTESIAN_POINT ( 'NONE',  ( -446.4999999999997158, 4.246217691407433782E-14, -2.999999999999975131 ) ) ;
#267 = DIRECTION ( 'NONE',  ( -1.000000000000000000, 2.775557561562891351E-17, 0.000000000000000000 ) ) ;
#268 = DIRECTION ( 'NONE',  ( 1.040834085586084257E-17, -8.673617379884035472E-19, -1.000000000000000000 ) ) ;
#269 = AXIS2_PLACEMENT_3D ( 'NONE', #318, #157, #194 ) ;
#270 = EDGE_CURVE ( 'NONE', #316, #33, #14, .T. ) ;
#271 = ORIENTED_EDGE ( 'NONE', *, *, #240, .T. ) ;
#272 =( LENGTH_UNIT ( ) NAMED_UNIT ( * ) SI_UNIT ( .MILLI., .METRE. ) );
#273 = DIRECTION ( 'NONE',  ( 1.040834085586084257E-17, -8.673617379884035472E-19, -1.000000000000000000 ) ) ;
#274 = AXIS2_PLACEMENT_3D ( 'NONE', #87, #380, #109 ) ;
#275 = CARTESIAN_POINT ( 'NONE',  ( 0.000000000000000000, 0.000000000000000000, 0.000000000000000000 ) ) ;
#276 = CARTESIAN_POINT ( 'NONE',  ( 455.0000000000001705, -14.99999999999993605, 3.000000000000002665 ) ) ;
#277 = ORIENTED_EDGE ( 'NONE', *, *, #9, .F. ) ;
#278 = FACE_OUTER_BOUND ( 'NONE', #38, .T. ) ;
#279 = ADVANCED_FACE ( 'NONE', ( #357 ), #386, .F. ) ;
#280 = VERTEX_POINT ( 'NONE', #236 ) ;
#281 = CARTESIAN_POINT ( 'NONE',  ( 435.5000000000000000, 1.123455226127784806E-14, -3.000000000000030198 ) ) ;
#282 = VERTEX_POINT ( 'NONE', #168 ) ;
#283 = VECTOR ( 'NONE', #355, 1000.000000000000000 ) ;
#284 = DIRECTION ( 'NONE',  ( -1.040834085586084257E-17, 8.673617379884035472E-19, 1.000000000000000000 ) ) ;
#285 = DIRECTION ( 'NONE',  ( -1.000000000000000000, 3.580469254416131421E-15, 1.084202172485506591E-17 ) ) ;
#286 = ADVANCED_FACE ( 'NONE', ( #298 ), #26, .F. ) ;
#287 = DIRECTION ( 'NONE',  ( -1.000000000000000000, -1.110223024625157033E-16, 1.040834085586084719E-17 ) ) ;
#288 = COLOUR_RGB ( '',0.5294117647058823595, 0.5490196078431373028, 0.5490196078431373028 ) ;
#289 = CARTESIAN_POINT ( 'NONE',  ( 455.0000000000001137, -14.99999999999994316, -3.000000000000002665 ) ) ;
#290 = EDGE_LOOP ( 'NONE', ( #232, #339 ) ) ;
#291 = LINE ( 'NONE', #382, #135 ) ;
#292 = ORIENTED_EDGE ( 'NONE', *, *, #64, .T. ) ;
#293 = APPLICATION_CONTEXT ( 'automotive_design' ) ;
#294 = CIRCLE ( 'NONE', #169, 5.500000000000005329 ) ;
#295 = DIRECTION ( 'NONE',  ( -1.040834085586084257E-17, 8.673617379884035472E-19, 1.000000000000000000 ) ) ;
#296 = VECTOR ( 'NONE', #346, 1000.000000000000000 ) ;
#297 = EDGE_LOOP ( 'NONE', ( #150, #151, #343, #256 ) ) ;
#298 = FACE_OUTER_BOUND ( 'NONE', #345, .T. ) ;
#299 = ORIENTED_EDGE ( 'NONE', *, *, #119, .T. ) ;
#300 = CARTESIAN_POINT ( 'NONE',  ( -440.9999999999997158, 4.163336342344337027E-14, -2.999999999999975131 ) ) ;
#301 = DIRECTION ( 'NONE',  ( 1.000000000000000000, -2.775557561562919084E-17, 0.000000000000000000 ) ) ;
#302 = VECTOR ( 'NONE', #350, 1000.000000000000000 ) ;
#303 = AXIS2_PLACEMENT_3D ( 'NONE', #275, #334, #7 ) ;
#304 = DIRECTION ( 'NONE',  ( -8.326672684688676518E-17, 1.000000000000000000, -2.888894916580852069E-34 ) ) ;
#305 = ADVANCED_FACE ( 'NONE', ( #171 ), #113, .F. ) ;
#306 = SURFACE_STYLE_FILL_AREA ( #3 ) ;
#307 = DIRECTION ( 'NONE',  ( -1.000000000000000000, 2.775557561562891351E-17, 1.084202172485506591E-17 ) ) ;
#308 = CYLINDRICAL_SURFACE ( 'NONE', #197, 39.99999999999992184 ) ;
#309 = FACE_OUTER_BOUND ( 'NONE', #179, .T. ) ;
#310 = CIRCLE ( 'NONE', #216, 5.500000000000005329 ) ;
#311 = ORIENTED_EDGE ( 'NONE', *, *, #251, .T. ) ;
#312 = FACE_BOUND ( 'NONE', #313, .T. ) ;
#313 = EDGE_LOOP ( 'NONE', ( #127, #367 ) ) ;
#314 = DIRECTION ( 'NONE',  ( -1.000000000000000000, 2.775557561562891967E-17, 1.040834085586084565E-17 ) ) ;
#315 = DIRECTION ( 'NONE',  ( -1.040834085586084257E-17, 8.673617379884035472E-19, 1.000000000000000000 ) ) ;
#316 = VERTEX_POINT ( 'NONE', #118 ) ;
#317 = CIRCLE ( 'NONE', #55, 39.99999999999992184 ) ;
#318 = CARTESIAN_POINT ( 'NONE',  ( -414.9999999999998295, 1.387778780781445676E-14, 2.999999999999891642 ) ) ;
#319 = LINE ( 'NONE', #49, #302 ) ;
#320 =( GEOMETRIC_REPRESENTATION_CONTEXT ( 3 ) GLOBAL_UNCERTAINTY_ASSIGNED_CONTEXT ( ( #265 ) ) GLOBAL_UNIT_ASSIGNED_CONTEXT ( ( #133, #102, #344 ) ) REPRESENTATION_CONTEXT ( 'NONE', 'WORKASPACE' ) );
#321 = DIRECTION ( 'NONE',  ( 1.000000000000000000, -2.775557561562919084E-17, 0.000000000000000000 ) ) ;
#322 = EDGE_CURVE ( 'NONE', #4, #181, #138, .T. ) ;
#323 = CYLINDRICAL_SURFACE ( 'NONE', #111, 5.500000000000005329 ) ;
#324 = DIRECTION ( 'NONE',  ( 1.040834085586084257E-17, -8.673617379884035472E-19, -1.000000000000000000 ) ) ;
#325 = CARTESIAN_POINT ( 'NONE',  ( 415.0000000000000568, 1.734723475976807094E-14, -2.999999999999864109 ) ) ;
#326 = EDGE_CURVE ( 'NONE', #331, #124, #190, .T. ) ;
#327 = UNCERTAINTY_MEASURE_WITH_UNIT (LENGTH_MEASURE( 1.000000000000000082E-05 ), #272, 'distance_accuracy_value', 'NONE');
#328 = DIRECTION ( 'NONE',  ( 8.326672684688676518E-17, -1.000000000000000000, 2.888894916580852069E-34 ) ) ;
#329 = ORIENTED_EDGE ( 'NONE', *, *, #240, .F. ) ;
#330 = DIRECTION ( 'NONE',  ( 1.000000000000000000, -2.775557561562891351E-17, 0.000000000000000000 ) ) ;
#331 = VERTEX_POINT ( 'NONE', #241 ) ;
#332 = DIRECTION ( 'NONE',  ( 1.040834085586084257E-17, -8.673617379884035472E-19, -1.000000000000000000 ) ) ;
#333 = ORIENTED_EDGE ( 'NONE', *, *, #108, .T. ) ;
#334 = DIRECTION ( 'NONE',  ( 0.000000000000000000, 0.000000000000000000, 1.000000000000000000 ) ) ;
#335 = CARTESIAN_POINT ( 'NONE',  ( -414.9999999999999432, 1.387778780781445676E-14, 1148.642675590367389 ) ) ;
#336 = VERTEX_POINT ( 'NONE', #361 ) ;
#337 = CYLINDRICAL_SURFACE ( 'NONE', #224, 39.99999999999992184 ) ;
#338 = CIRCLE ( 'NONE', #161, 5.500000000000005329 ) ;
#339 = ORIENTED_EDGE ( 'NONE', *, *, #42, .T. ) ;
#340 =( NAMED_UNIT ( * ) PLANE_ANGLE_UNIT ( ) SI_UNIT ( $, .RADIAN. ) );
#341 = PRODUCT_DEFINITION ( 'UNKNOWN', '', #68, #105 ) ;
#342 = DIRECTION ( 'NONE',  ( -1.040834085586084565E-17, -8.673617379884029694E-19, -1.000000000000000000 ) ) ;
#343 = ORIENTED_EDGE ( 'NONE', *, *, #262, .F. ) ;
#344 =( NAMED_UNIT ( * ) SI_UNIT ( $, .STERADIAN. ) SOLID_ANGLE_UNIT ( ) );
#345 = EDGE_LOOP ( 'NONE', ( #153, #189, #356, #365 ) ) ;
#346 = DIRECTION ( 'NONE',  ( 1.000000000000000000, 1.110223024625157033E-16, -1.040834085586084719E-17 ) ) ;
#347 = ORIENTED_EDGE ( 'NONE', *, *, #42, .F. ) ;
#348 = AXIS2_PLACEMENT_3D ( 'NONE', #29, #328, #354 ) ;
#349 = SURFACE_STYLE_USAGE ( .BOTH. , #16 ) ;
#350 = DIRECTION ( 'NONE',  ( 1.040834085586084257E-17, -8.673617379884035472E-19, -1.000000000000000000 ) ) ;
#351 = EDGE_CURVE ( 'NONE', #187, #235, #243, .T. ) ;
#352 = LINE ( 'NONE', #378, #210 ) ;
#353 = AXIS2_PLACEMENT_3D ( 'NONE', #114, #200, #267 ) ;
#354 = DIRECTION ( 'NONE',  ( 1.000000000000000000, 8.326672684688676518E-17, -1.040834085586084565E-17 ) ) ;
#355 = DIRECTION ( 'NONE',  ( 1.040834085586084257E-17, -8.673617379884035472E-19, -1.000000000000000000 ) ) ;
#356 = ORIENTED_EDGE ( 'NONE', *, *, #79, .T. ) ;
#357 = FACE_OUTER_BOUND ( 'NONE', #374, .T. ) ;
#358 = ADVANCED_FACE ( 'NONE', ( #78 ), #199, .T. ) ;
#359 = AXIS2_PLACEMENT_3D ( 'NONE', #27, #139, #330 ) ;
#360 = CARTESIAN_POINT ( 'NONE',  ( 452.0809924354780946, 15.00000000000004086, 1141.142675590367617 ) ) ;
#361 = CARTESIAN_POINT ( 'NONE',  ( 452.0809924354782083, 15.00000000000006217, -2.999999999999919176 ) ) ;
#362 = EDGE_CURVE ( 'NONE', #13, #46, #30, .T. ) ;
#363 = FACE_BOUND ( 'NONE', #252, .T. ) ;
#364 = VECTOR ( 'NONE', #140, 1000.000000000000000 ) ;
#365 = ORIENTED_EDGE ( 'NONE', *, *, #175, .T. ) ;
#366 = APPLICATION_PROTOCOL_DEFINITION ( 'draft international standard', 'automotive_design', 1998, #88 ) ;
#367 = ORIENTED_EDGE ( 'NONE', *, *, #351, .T. ) ;
#368 = CARTESIAN_POINT ( 'NONE',  ( 415.0000000000000000, 6.938893903907228378E-15, 1141.142675590367617 ) ) ;
#369 = CARTESIAN_POINT ( 'NONE',  ( -446.4999999999997158, 4.245957482886037261E-14, -2.999999999999975131 ) ) ;
#370 = AXIS2_PLACEMENT_3D ( 'NONE', #206, #173, #57 ) ;
#371 = STYLED_ITEM ( 'NONE', ( #2 ), #22 ) ;
#372 = ORIENTED_EDGE ( 'NONE', *, *, #270, .F. ) ;
#373 = LINE ( 'NONE', #71, #45 ) ;
#374 = EDGE_LOOP ( 'NONE', ( #110, #129, #223, #65 ) ) ;
#375 = FACE_BOUND ( 'NONE', #290, .T. ) ;
#376 = PLANE ( 'NONE',  #143 ) ;
#377 = AXIS2_PLACEMENT_3D ( 'NONE', #134, #196, #321 ) ;
#378 = CARTESIAN_POINT ( 'NONE',  ( 452.0809924354782652, -15.00000000000000711, 1141.142675590367617 ) ) ;
#379 = FILL_AREA_STYLE ('',( #20 ) ) ;
#380 = DIRECTION ( 'NONE',  ( 1.040834085586084257E-17, -8.673617379884035472E-19, -1.000000000000000000 ) ) ;
#381 = CLOSED_SHELL ( 'NONE', ( #305, #234, #385, #1, #279, #52, #170, #21, #286, #358, #116 ) ) ;
#382 = CARTESIAN_POINT ( 'NONE',  ( -452.0809924354779241, -14.99999999999994316, 1148.642675590367389 ) ) ;
#383 = ORIENTED_EDGE ( 'NONE', *, *, #195, .F. ) ;
#384 = CARTESIAN_POINT ( 'NONE',  ( 446.5000000000000568, 1.025828727518884718E-14, 3.000000000000030198 ) ) ;
#385 = ADVANCED_FACE ( 'NONE', ( #94 ), #308, .T. ) ;
#386 = PLANE ( 'NONE',  #348 ) ;
#387 = CIRCLE ( 'NONE', #117, 39.99999999999992184 ) ;
#388 = DIRECTION ( 'NONE',  ( 1.000000000000000000, -2.775557561562891351E-17, 0.000000000000000000 ) ) ;
#389 = PRESENTATION_LAYER_ASSIGNMENT (  '', '', ( #371 ) ) ;
ENDSEC;
END-ISO-10303-21;
